For Squirrels

Message Board - Disenchanted Bass Tab

Back to Board

Disenchanted Bass Tab Posted by: Kevin on: 2018-02-10 19:41:36 (post a reply)
So, does anyone out there know the Bass line for Disenchanted. I've never been good at figuring out guitar tab by ear.
I'm trying to record my own cover of the song for my wife for a Birthday gift. I've got the guitar part down thanks to the tab on here, but I need help with the bass line. If anyone knows it, I could use some help. Bill was a really good bass player, and I can't quite get it.
Re: Disenchanted Bass Tab Posted by: guest on: 2018-04-06 00:47:18 (post a reply)
Well, I did my best. In case this is ever useful to anyone else...

----------------------------------PLEASE NOTE---------------------------------#
#This file is the author's own work and represents their interpretation of the #
#song. You may only use this file for private study, scholarship, or research. #
#------------------------------------------------------------------------------##

(Disenchanted Bassline)


(E A D G) - 'Disenchanted'

Verse
|--------------------------------|
|----2-----------2----1-4-4------|
|-2-----2-----2-----2-------2----|
|----------0---------------------|


Chorus
|------------------------------------|
|------------------------------------|
|------------------------------------|
|-0----0--2--2--4--4--5-5-5-5-5-5----|


Bridge
|-----------------|-----------------|
|-----------------|-1-1-1---1-2-4-5-|
|-0-0-0-2-0---0-2-|-------3---------|
|-----------3-----|-----------------|


|-----------------|------------------|
|-2---------------|---1-1-1---1-2----|
|---0-0-0-2-0---0-|-2-------3--------|
|-------------3---|------------------|
Re: Disenchanted Bass Tab Posted by: guest on: 2018-04-06 00:48:07 (post a reply)
(E A D G) - 'Disenchanted'

Verse
|--------------------------------|
|----2-----------2----1-4-4------|
|-2-----2-----2-----2-------2----|
|----------0---------------------|


Chorus
|------------------------------------|
|------------------------------------|
|------------------------------------|
|-0----0--2--2--4--4--5-5-5-5-5-5----|


Bridge
|-----------------|-----------------|
|-----------------|-1-1-1---1-2-4-5-|
|-0-0-0-2-0---0-2-|-------3---------|
|-----------3-----|-----------------|


|-----------------|------------------|
|-2---------------|---1-1-1---1-2----|
|---0-0-0-2-0---0-|-2-------3--------|
|-------------3---|------------------|
Re: Disenchanted Bass Tab Posted by: guest on: 2018-04-06 00:49:04 (post a reply)
Sorry, it is formatting weird. But the notes are there at least
x

Back to Board

♥2001 - 2017 Solairis web designs.
Page last updated: Sun Apr 30 18:55:33 2017
DEBUG html css uptime. MPG: 0.043463, Thread: 19047