For Squirrels

 

Tabs - Baypath Road - Flagboy

Index - Baypath Road | Example | Never Bet The Devil Your Head | Misc. - - Tablature Explanation
Song: Flagboy
Album: Baypath Road
Music by: For Squirrels 
Tabbed by: Josh J

Standard Tuning -E-A-D-G-B-E-

Chords used in this song:
 Am  C   Dm  F   B5  G
-0- -0- -1- -1- -0- -3-
-1- -1- -3- -1- -0- -3-
-2- -0- -2- -2- -4- -0-
-2- -2- -0- -3- -4- -0-
-0- -3- -x- -3- -2- -x-
-x- -x- -x- -1- -x- -3-


INTRO
  Guitar 3 (harmonica arranged for guitar)
e|-3-5---3-----5---3-5---3-----5---|-3-5---3-----5---3-5---3-----5---| 
b|---------------------------------|---------------------------------|

  Guitar 1 (acoustic)
  rhythm fig. 1                                 end rhythm fig. 1
   Am              C                 Dm              F
  Guitar 3
e|-3-5---3-----5---3-5---3-----5---|-3-5---3-----5---3-5---3-----5---| 
b|---------------------------------|---------------------------------| 
 |Guitar 2 (semi-clean electric)
e|-0---0-0-0---0-0-0---0-0-0---0-0-|-1---1-1-1---1-1-0---0-0-0---0-0-| 
b|-1---1-1-1---1-1-1---1-1-1---1-1-|-3---3-3-3---3-3-0---0-0-0---0-0-| 
g|-2---2-2-0h2-2-2-2---2-2-0h2-2-2-|-2---2-2-0h2-2-2-0h2-2-2-0h2-2-2-| 
d|-2---2-2-2---2-2-2---2-2-2---2-2-|-0---0-0-0---0-0-3---3-3-3---3-3-| 
a|-0---0---0---0---3---3---3---3---|-----------------3---3-3-3---3-3-| 
e|---------------------------------|-----------------1---1---1---1---|

  Guitar 1
   Am              C                 Dm              F
  Guitar 3
e|-3-5---3-----5---3-5---3-----5---|-3-5---3-----5---3-5---3-----5---| 
b|---------------------------------|---------------------------------| 
 |Guitar 2
e|-0---0-0-0---0-0-0---0-0-0---0-0-|-1---1-1-1---1-1-0---0-0-0---0-0-| 
b|-1---1-1-1---1-1-1---1-1-1---1-1-|-3---3-3-3---3-3-0---0-0-0---0-0-| 
g|-2---2-2-0h2-2-2-2---2-2-0h2-2-2-|-2---2-2-0h2-2-2-0h2-2-2-0h2-2-2-| 
d|-2---2-2-2---2-2-2---2-2-2---2-2-|-0---0-0-0---0-0-3---3-3-3---3-3-| 
a|-0---0---0---0---3---3---3---3---|-----------------3---3-3-3---3-3-| 
e|---------------------------------|-----------------1---1---1---1---|

  Guitar 1
   Am              C                 Dm              F
  Guitar 3
e|-3-5---3-----5---3-5---3-----5---|-3-5---3-----5---3-5---3-----5---| 
b|---------------------------------|---------------------------------| 
 |Guitar 2
e|-0---0-0-0---0-0-0---0-0-0---0-0-|-1---1-1-1---1-1-0---0-0-0---0-0-| 
b|-1---1-1-1---1-1-1---1-1-1---1-1-|-3---3-3-3---3-3-0---0-0-0---0-0-| 
g|-2---2-2-0h2-2-2-2---2-2-0h2-2-2-|-2---2-2-0h2-2-2-0h2-2-2-0h2-2-2-| 
d|-2---2-2-2---2-2-2---2-2-2---2-2-|-0---0-0-0---0-0-3---3-3-3---3-3-| 
a|-0---0---0---0---3---3---3---3---|-----------------3---3-3-3---3-3-| 
e|---------------------------------|-----------------1---1---1---1---|

  Guitar 1
   Am              C                 Dm              F
  Guitar 3
e|-3-5---3-----5---3-5---3-----5---|-3-5---3-----5---3-5---3-----5---| 
b|---------------------------------|---------------------------------| 
 |Guitar 2
e|-0---0-0-0---0-0-0---0-0-0---0-0-|-1---1-1-1---1-1-----------------| 
b|-1---1-1-1---1-1-1---1-1-1---1-1-|-3---3-3-3---3-3-----------------| 
g|-2---2-2-0h2-2-2-2---2-2-0h2-2-2-|-2---2-2-0h2-2-2-----------------| 
d|-2---2-2-2---2-2-2---2-2-2---2-2-|-0---0-0-0---0-0-3-3-3-3-3-3-3-3-| 
a|-0---0---0---0---3---3---3---3---|-----------------3-3-3-3-3-3-3-3-| 
e|---------------------------------|-----------------1-1-1-1-1-1-1-1-|

VERSE
  Guitar 1 [play rhythm fig. 1 2x]

  Guitar 1 [play rhythm fig. 1 2x]
   Am              C                 Dm              F
  Guitar 2
e|-0-----0-----0---0-----0-----0---|-1-----1-----1---1-----1-----1---| 
b|---1-----1-----1---1-----1-----1-|---3-----3-----0---1-----1-----0-| 
g|-----2-----2---------0-----0-----|-----2-----2---------2-----2-----| 
d|---------------------------------|---------------------------------| 
a|---------------------------------|---------------------------------| 
e|---------------------------------|---------------------------------|
  Guitar 2
e|-0-----0-----0---0-----0-----0---|-1-----1-----1-------------------| 
b|---1-----1-----1---1-----1-----1-|---3-----3-----0-----------------| 
g|-----2-----2---------0-----0-----|-----2-----2---------------------| 
d|---------------------------------|-----------------3-3-3-3-3-3-3-3-| 
a|---------------------------------|-----------------3-3-3-3-3-3-3-3-| 
e|---------------------------------|-----------------1-1-1-1-1-1-1-1-|

PRE-CHORUS
  Guitar 1
   B5              Am                B5              Am
  Guitar 2
e|-------0---0---0-------0---------|-------0---0---0-------0---------| 
b|-------0---0---0-----------1-----|-------0---0---0-----------1-----| 
g|-4---4-4---4---4-2---2---------2-|-4---4-4---4---4-2---2---------2-| 
d|-4---4-----------2---2-----------|-4---4-----------2---2-----------| 
a|-2---2-----------0---0-----------|-2---2-----------0---0-----------| 
e|---------------------------------|---------------------------------|
  Guitar 1
   B5              Am                B5              Am
  Guitar 2
e|-------0---0---0-------0---------|-3---3---3-3-3-3-----------------|
b|-------0---0---0-----------1-----|-3---3---3-3-3-3-3/5-5-5\3-3-3r0-| 
g|-4---4-4---4---4-2---2---------2-|-0---0---0-0-0-0-----------------| 
d|-4---4-----------2---2-----------|-0---0---0-0-0-0-----------------| 
a|-2---2-----------0---0-----------|-x---x---x-x-x-x-----------------| 
e|---------------------------------|-3---3---3-3-3-3-----------------|

CHORUS
  Guitar 1
   C               Dm                G
  Guitar 2
e|-0---0-0---0-0-0-1---1-1---1-1-0-|-3---3-3-3-3-3-3-3-3-3-3-3-3-3-3-| 
b|-1---1-1---1-1-0-3---3-3---3-3-0-|-3---3-3-3-3-3-3-3-3-3-3-3-3-3-3-| 
g|-0---0-0---0-0-0-2---2-2---2-2-0-|-0---0-0-0-0-0-0-0-0-0-0-0-0-0-0-| 
d|-2---2-2---2-2---0---0-0---0-0---|-0---0-0-0-0-0-0-0-0-0-0-0-0-0-0-| 
a|-3---3-------3-------------------|-x-------------------------------| 
e|---------------------------------|-3-------------------------------|
  Guitar 1
   C               Dm                G
  Guitar 2
e|-0---0-0---0-0-0-1---1-1---1-1-0-|-3---3---3-3-3-3-----------------| 
b|-1---1-1---1-1-0-3---3-3---3-3-0-|-3---3---3-3-3-3-3/5-5-5\3-3-3r0-| 
g|-0---0-0---0-0-0-2---2-2---2-2-0-|-0---0---0-0-0-0-----------------| 
d|-2---2-2---2-2---0---0-0---0-0---|-0---0---0-0-0-0-----------------| 
a|-3---3-------3-------------------|-x---x---x-x-x-x-----------------| 
e|---------------------------------|-3---3---3-3-3-3-----------------|
  Guitar 1
   C               Dm                G
  Guitar 2
e|-0---0-0---0-0-0-1---1-1---1-1-0-|-3---3-3-3-3-3-3-3-3-3-3-3-3-3-3-| 
b|-1---1-1---1-1-0-3---3-3---3-3-0-|-3---3-3-3-3-3-3-3-3-3-3-3-3-3-3-| 
g|-0---0-0---0-0-0-2---2-2---2-2-0-|-0---0-0-0-0-0-0-0-0-0-0-0-0-0-0-| 
d|-2---2-2---2-2---0---0-0---0-0---|-0---0-0-0-0-0-0-0-0-0-0-0-0-0-0-| 
a|-3---3-------3-------------------|-x-------------------------------| 
e|---------------------------------|-3-------------------------------|
  Guitar 1
   C               Dm                G
  Guitar 2
e|-0---0-0---0-0-0-1---1-1---1-1-0-|-3---3-3-3-3-3-3-3-3-3-3-3-3-3-3-| 
b|-1---1-1---1-1-0-3---3-3---3-3-0-|-3---3-3-3-3-3-3-3-3-3-3-3-3-3-3-| 
g|-0---0-0---0-0-0-2---2-2---2-2-0-|-0---0-0-0-0-0-0-0-0-0-0-0-0-0-0-| 
d|-2---2-2---2-2---0---0-0---0-0---|-0---0-0-0-0-0-0-0-0-0-0-0-0-0-0-| 
a|-3---3-------3-------------------|-x-------------------------------| 
e|---------------------------------|-3-------------------------------|

OUTRO
  Bass
   Am              C                 Dm              F
  Bass
   Am              C                 Dm              F
  Guitar 2
e|-------0-------0-------0-------0-|-------0-------0-------0-------0-| 
b|-----1---0h1-1-------1---0h1-1---|-----1---0h1-1-------1---0h1-1---| 
g|-2---------------0---------------|-2---------------0---------------| 
d|---------------------------------|---------------------------------| 
a|---------------------------------|---------------------------------| 
e|---------------------------------|---------------------------------|
  Guitar 1
   Am              C                 Dm              F
  Guitar 2
e|-0---0-0-0---0-0-0---0-0-0---0-0-|-1---1-1-1---1-1-0---0-0-0---0-0-| 
b|-1---1-1-1---1-1-1---1-1-1---1-1-|-3---3-3-3---3-3-0---0-0-0---0-0-| 
g|-2---2-2-0h2-2-2-2---2-2-0h2-2-2-|-2---2-2-0h2-2-2-0h2-2-2-0h2-2-2-| 
d|-2---2-2-2---2-2-2---2-2-2---2-2-|-0---0-0-0---0-0-3---3-3-3---3-3-| 
a|-0---0---0---0---3---3---3---3---|-----------------3---3-3-3---3-3-| 
e|---------------------------------|-----------------1---1---1---1---|
  Guitar 1
   Am              C                 Dm              F
  Guitar 2
e|-0---0-0-0---0-0-0---0-0-0---0-0-|-1---1-1-1---1-1-----------------| 
b|-1---1-1-1---1-1-1---1-1-1---1-1-|-3---3-3-3---3-3-----------------| 
g|-2---2-2-0h2-2-2-2---2-2-0h2-2-2-|-2---2-2-0h2-2-2-----------------| 
d|-2---2-2-2---2-2-2---2-2-2---2-2-|-0---0-0-0---0-0-3-3-3-3-3-3-3-3-| 
a|-0---0---0---0---3---3---3---3---|-----------------3-3-3-3-3-3-3-3-| 
e|---------------------------------|-----------------1-1-1-1-1-1-1-1-|
  Guitars 1 & 2
   Am              C                 Dm              F
  
  Guitar 1
   Am
  Guitar 2
e|-0-------------------------------| 
b|-1-------------------------------| 
g|-2-------------------------------| 
d|-2-------------------------------| 
a|-0-------------------------------| 
e|---------------------------------|

♥2001 - 2010 Solairis web designs.
Page last updated: Wed Jun 7 19:29:30 2006
DEBUG html css uptime. MPG: 0.039769, Thread: 985