For Squirrels

Tabs - Baypath Road - Plymouth

Index - Baypath Road | Example | Never Bet The Devil Your Head | Misc. - - Tablature Explanation
Song: Plymouth
Album: Baypath Road
Music By: For Squirrels
Tabbed by: Josh J

Standard Tuning -E-A-D-G-B-E-


INTRO
Bass 
g|---------------------------------|---------------------------------| 
d|---------------------------------|---------------------------------| 
a|-7---7-7-6-6-6-4---4-4-4-2-2-2-4-|-7---7-7-6-6-6-4---4-4-4-2-2-2-4-| 
e|---------------------------------|---------------------------------|
Guitar 1 (clean) w/ Bass
e|-0---0-0-0-0-0-0---0-0-0-0-0-0-0-|-0---0-0-0-0-0-0---0-0-0-0-0-0-0-| 
b|-5---5-5-4-4-4-2---2-2-2-0-0-2-4-|-5---5-5-4-4-4-2---2-2-2-0-0-0-0-| 
g|---------------------------------|---------------------------------|

e|-0---0-0-0-0-0-0---0-0-0-0-0-0---|-0---0-0-0-0-0-0---0-0-0-0-0-0---| 
b|-9---9-9-7-7-7-5---5-5-5-5-7-7---|-9---9-9-7-7-7-12--121212121212--|
g|---------------------------------|---------------------------------|

e|---------------------------------|---------------------------------| 
b|-12--12--12----12------12--------|-12--12--12----12------12--------|
g|-------13--1313----1313----131313|-------13--1313----1313----131313|

e|---------------------------------|---------------12--12121212121212| 
b|-12--12--12----12------12--------|-12--12--12----------------------|
g|-------13--1313----1313----131313|-------13--1313------------------|

e|-0---0-0-0-0-0-0---0-0-0-0-0-0-0-|-0---0-0-0-0-0-0---0-0-0-0-0-0-0-| 
b|-5---5-5-4-4-4-2---2-2-2-0-0-2-4-|-5---5-5-4-4-4-2---2-2-2-0-0-0-0-| 
g|---------------------------------|---------------------------------|

e|-0---0-0-0-0-0-0---0-0-0-0-0-0---|-0---0-0-0-0-0-0---0-0-0-0-0-0---| 
b|-9---9-9-7-7-7-5---5-5-5-5-7-7---|-9---9-9-7-7-7-12--121212121212--|
g|---------------------------------|---------------------------------|

e|---------------------------------|---------------------------------| 
b|-12--12--12----12------12--------|-12--12--12----12------12--------|
g|-------13--1313----1313----131313|-------13--1313----1313----131313|

e|---------------------------------|---------------12--12121212121212| 
b|-12--12--12----12------12--------|-12--12--12----------------------|
g|-------13--1313----1313----131313|-------13--1313------------------|

e|---------------------------------|---------------------------------| 
b|---------------------------------|---------------------------------| 
g|---------------------------------|---------------------------------| 
d|-2---2-2-2-2-2-4---4-4-4-4-4-4-4-|-6---6-6-6-6-6-7---7-7-7-7-7-7-7-| 
a|-2---2-2-2-2-2-4---4-4-4-4-4-4-4-|-6---6-6-6-6-6-7---7-7-7-7-7-7-7-| 
e|-0---0-0-0-0-0-2---2-2-2-2-2-2-2-|-4---4-4-4-4-4-5---5-5-5-5-5-5-5-|

e|---------------------------------|---------------------------------| 
b|---------------------------------|---------------------------------| 
g|---------------------------------|---------------------------------| 
d|-2---2-2-2-2-2-4---4-4-4-4-4-4-4-|-6---6-6-6-6-6-7---7-7-7-7-7-7-7-| 
a|-2---2-2-2-2-2-4---4-4-4-4-4-4-4-|-6---6-6-6-6-6-7---7-7-7-7-7-7-7-| 
e|-0---0-0-0-0-0-2---2-2-2-2-2-2-2-|-4---4-4-4-4-4-5---5-5-5-5-5-5-5-|
Bass 
g|---------------------------------|---------------------------------| 
d|---------------------------------|---------------------------------| 
a|-7---7-7-6-6-6-4---4-4-4-2-2-2-4-|-7---7-7-6-6-6-4---4-4-4-2-2-2-4-| 
e|---------------------------------|---------------------------------|
Guitar 1 (clean) w/ Bass
e|-0---0-0-0-0-0-0---0-0-0-0-0-0-0-|-0---0-0-0-0-0-0---0-0-0-0-0-0-0-| 
b|-5---5-5-4-4-4-2---2-2-2-0-0-2-4-|-5---5-5-4-4-4-2---2-2-2-0-0-0-0-| 
g|---------------------------------|---------------------------------|

e|-0---0-0-0-0-0-0---0-0-0-0-0-0---|-0---0-0-0-0-0-0---0-0-0-0-0-0---| 
b|-9---9-9-7-7-7-5---5-5-5-5-7-7---|-9---9-9-7-7-7-12--121212121212--|
g|---------------------------------|---------------------------------|

e|---------------------------------|---------------------------------| 
b|-12--12--12----12------12--------|-12--12--12----12------12--------|
g|-------13--1313----1313----131313|-------13--1313----1313----131313|

e|---------------------------------|---------------12--12121212121212| 
b|-12--12--12----12------12--------|-12--12--12----------------------|
g|-------13--1313----1313----131313|-------13--1313------------------|

e|-----12----12----12----12----12--|---12----12----12----12----12----| 
b|-12----12----12----12----12----12|-----12----12----12----12----12--| 
g|---------------------------------|---------------------------------|

e|-----12----12----12----12----12--|---12----12----12----12----12----| 
b|-12----12----12----12----12----12|-----12----12----12----12----12--| 
g|---------------------------------|---------------------------------|
                                    Guitar 1 (w/ heavy distortion)
e|---------------------------0-----|---------------------------------| 
b|-1210--9---7---7---4---5---------|---------------------------------| 
g|---------------------------------|---------------------------------|
d|---------------------------------|-2-------------------------------| 
a|---------------------------------|-2-------------------------------| 
e|---------------------------------|-0-------------------------------|
 |Guitar 2 (clean)                  Guitar 2 (w/ heavy distortion)
e|-16------------------------------|---------------------------------| 
b|---------------------------------|---------------------------------| 
g|---------------------------------|-9-------------------------------|
d|---------------------------------|-9-------------------------------| 
a|---------------------------------|-7-------------------------------| 
e|---------------------------------|---------------------------------|

♥2001 - 2017 Solairis web designs.
Page last updated: Sun Apr 30 18:55:32 2017
DEBUG html css uptime. MPG: 0.027659, Thread: 29014