For Squirrels

Tabs - Example - 8

Index - Baypath Road | Example | Never Bet The Devil Your Head | Misc. - - Tablature Explanation
Song: 802 PM
Album: Example
Music by: For Squirrels 
Tabbed by: Josh J

Standard Tuning -E-A-D-G-B-E-

Intro (play 8x) 
e|----------12-------------12------12----| 
b|-----12------12------------------------| 
g|-14--------------14--13-----13---------| 
d|---------------------------------------| 
a|---------------------------------------| 
e|---------------------------------------|

Verse 
e|------------------------------------------------------------------| 
b|------------------------------------------------------------------| 
g|------------------------------------------------------------------| 
d|---------9---------------9---6---7--------9-----------9---11--9---| 
a|------------------------------------------------------------------| 
e|-0---0-0-0---0-0---0-0---0---0---0---0-0-0---0-0---0-0---0---0----|

e|------------------------------------------------------------------| 
b|------------------------------------------------------------------| 
g|------------------------------------------------------------------| 
d|-----------9--------------9---6---7-------9-----------12--11--9---| 
a|------------------------------------------------------------------| 
e|--0---0-0-0---0-0---0-0---0---0---0---0-0-0---0-0---0-0---0---0---| 

Chorus
   I       just wanna hold the sun. I     just want my day to come.
   E5      F#5     A5      E5
e|------------------------------------------------------------------|
b|------------------------------------------------------------------|
g|-----------------2-2-2-2-------------------------2-2-2-2----------|
d|-2-2-2-2-4-4-4-4-2-2-2-2-2-2-2-2-2-2-2-2-4-4-4-4-2-2-2-2-2-2-2-2--|
a|-2-2-2-2-4-4-4-4-0-0-0-0-2-2-2-2-2-2-2-2-4-4-4-4-0-0-0-0-2-2-2-2--|
e|-0-0-0-0-2-2-2-2---------0-0-0-0-0-0-0-0-2-2-2-2---------0-0-0-0--|

       gotta   gotta   gotta   gotta             I really need this one
       E5      F#5     F#5     F#5 A5              B5
e|------------------------------------------------------------------|
b|------------------------------------------------------------------|
g|---------------------------------2-2-2-2-2-2-2-2-4-4-4-4-4-4-4-4--|
d|-----2-2-----4-4-----4-4-----4-4-2-2-2-2-2-2-2-2-4-4-4-4-4-4-4-4--|
a|-----2-2-----4-4-----4-4-----4-4-0-0-0-0-0-0-0-0-2-2-2-2-2-2-2-2--|
e|-----0-0-----2-2-----2-2-----2-2----------------------------------|

Interlude
   A               E               A               E
e|-0-0-0-0-0-0-0-0-0-0-0-0-0-0-0-0-0-0-0-0-0-0-0-0-0-0-0-0-0-0-0-0--|
b|-2-2-2-2-2-2-2-2-0-0-0-0-0-0-0-0-2-2-2-2-2-2-2-2-0-0-0-0-0-0-0-0--|
g|-2-2-2-2-2-2-2-2-1-1-1-1-1-1-1-1-2-2-2-2-2-2-2-2-1-1-1-1-1-1-1-1--|
d|-2-2-2-2-2-2-2-2-2-2-2-2-2-2-2-2-2-2-2-2-2-2-2-2-2-2-2-2-2-2-2-2--|
a|-0-0-0-0-0-0-0-0-2-2-2-2-2-2-2-2-0-0-0-0-0-0-0-0-2-2-2-2-2-2-2-2--|
e|-----------------0-0-0-0-0-0-0-0-----------------0-0-0-0-0-0-0-0--|

Then after the Interlude it does the intro again followed by the verse
riff. I didn't tab this out extensively, it pretty much goes verse
chorus verse. I know it's cliche by now, but listen to the cd, and you
will know.
    

♥2001 - 2017 Solairis web designs.
Page last updated: Sun Apr 30 18:55:32 2017
DEBUG html css uptime. MPG: 0.067489, Thread: 18246