For Squirrels

Tabs - Example - Disenchanted

Index - Baypath Road | Example | Never Bet The Devil Your Head | Misc. - - Tablature Explanation
Song: Disenchanted
Album: Example
Music by: For Squirrels
Tabbed by: Josh J

Standard Tuning -E-A-D-G-B-E-


Intro
e|-2-------------------2-|-2---
b|-0-------------------0-|-0---
g|-4-------------------4-|-4---
d|-4-------------------4-|-4---
a|-----------------------|-----
E|-----------------------|-----

Verse
e|-------------0-0-0-0-|-2---2-2-2-4-0---0-0-0-2-0---0-0-0-0-0---0-0-0-0-|
b|-------------0-2-4-0-|-0---0-0-0-0-0---0-0-0-0-4---4-4-4-0-2---2-2-2-4-|
g|-------------4-4-4-4-|-4---4-4-4-4-4---4-4-4-4-4---4-4-4-4-4---4-4-4-4-| 
d|-------------4-4-4-4-|-4---4-4-4-4-4---4-4-4-4-4---4-4-4-4-4---4-4-4-4-|
a|---------------------|-------------------------------------------------|
e|---------------------|-------------------------------------------------|

    (play at end of verse)
e|-0-0-0-0-0---0-0-0-0-0---0-0-0-0-0---0-0-0-0-|
b|-0-0-0-4-2---2-2-2-4-0---0-0-0-4-2---2-2-2-4-|
g|-4-4-4-4-4---4-4-4-4-4---4-4-4-4-4---4-4-4-4-|
d|-4-4-4-4-4---4-4-4-4-4---4-4-4-4-4---4-4-4-4-|
a|---------------------------------------------|
e|---------------------------------------------|


Chorus
e|-----------------------------------------------------|
b|-----------------------------------------------------|
g|-----------------------------------------------------|
d|-2------2---2-2------2-2-2-4------4---4-4------4-4-4-|
a|-2------2---2-2------2-2-2-4------4---4-4------4-4-4-|
e|-0------0---0-0------0-0-0-2------2---2-2------2-2-2-|

e|-----------------------------------------------------|
b|-----------------------------------------------------|
g|-2------2---2-2------2-2-2---------------------------|
d|-2------2---2-2------2-2-2-4------4---4-4------4-4-4-|
a|-0------0---0-0------0-0-0-4------4---4-4------4-4-4-|
e|---------------------------2------2---2-2------2-2-2-|

Interlude (play 2x) - - - - - - - - - - - - - - - - - - - - - - - 
e|-----0-------0-------0-------0------0-------0-------0-------0---|
b|-------13------13------13------0------12------12------12------0-|
g|-14-------14------14------14-----12------12------12------12-----|
d|----------------------------------------------------------------|
a|----------------------------------------------------------------|
E|----------------------------------------------------------------|
- - - - - - - - - - - - - - - - - - - - - - - - - - - - - - - - }
e|----0-------0-------0-------0------0-------0-------0-------0---|
b|------10------10------10------0------12------12------12------0-|
g|-11------11------11------11-----12------12------12------12-----|
d|---------------------------------------------------------------|
a|---------------------------------------------------------------|
E|---------------------------------------------------------------|
 (play 3rd time) - - - - - - - - - - - - - - - - - - - - - - - -
e|----0-------0------0-------0------0-------0------0-------0---|
b|------13------0------13------0------12------0------12------0-|
g|-14------14-----14------14-----12------12-----12------12-----|
d|-------------------------------------------------------------|
a|-------------------------------------------------------------|
E|-------------------------------------------------------------|
- - - - - - - - - - - - - - - - - - - - - - - - - - - - - - - -}
e|----0-------0-------0-------0----0---------------------------|
b|------10------10------10------0--0---------------------------|
g|-11------11------11------11-----12---------------------------|
d|-------------------------------------------------------------|
a|-------------------------------------------------------------|
E|-------------------------------------------------------------|

Solo  (play 8x)
e|---0^2^0-2^4---4/5---5/7---0^2^0-2^4---4/5---5/7-|
b|-0-----0-----0-----0-----0-----0-----0-----0-----|
g|-------------------------------------------------|
d|-------------------------------------------------|
a|-------------------------------------------------|
E|-------------------------------------------------|

Outro
e|-7---5---4---5---4---2---4---2---0---2---------0-|
b|-----------------------------------------0-2-4---|
g|-------------------------------------------------|
d|-------------------------------------------------|
a|-------------------------------------------------|
e|-------------------------------------------------|

(play 3x)
e|-2---2-2-2-4-0---0-0-0-2-0---0-0-0-0-0---0-0-0-0-|
b|-0---0-0-0-0-0---0-0-0-0-4---4-4-4-0-2---2-2-2-4-|
g|-4---4-4-4-4-4---4-4-4-4-4---4-4-4-4-4---4-4-4-4-|
d|-4---4-4-4-4-4---4-4-4-4-4---4-4-4-4-4---4-4-4-4-|
a|-------------------------------------------------|
e|-------------------------------------------------|

(play 4th time)
e|-0-0-0-0-0---0-0-0-0-0---0-0-0-0-0---0-0-0-0-|
b|-0-0-0-4-2---2-2-2-4-0---0-0-0-4-2---2-2-2-4-|
g|-4-4-4-4-4---4-4-4-4-4---4-4-4-4-4---4-4-4-4-|
d|-4-4-4-4-4---4-4-4-4-4---4-4-4-4-4---4-4-4-4-|
a|---------------------------------------------|
e|---------------------------------------------|

                                           (fade in the tremolo picking)
e|-0---0---0---0--------------------------|-2/---/--/-////-----
b|-0---2---4---0--------------------------|-0/---/--/-////-----
g|-4---4---4---4--------------------------|-4/---/--/-////-----
d|-4---4---4---4--------------------------|-4/---/--/-////-----
a|----------------------------------------|--------------------
e|----------------------------------------|--------------------
    

♥2001 - 2017 Solairis web designs.
Page last updated: Sun Apr 30 18:55:32 2017
DEBUG html css uptime. MPG: 0.065173, Thread: 22041