For Squirrels

Tabs - Example - Long Live the King

Index - Baypath Road | Example | Never Bet The Devil Your Head | Misc. - - Tablature Explanation
Song: Long Live The King
Album: Example
Music by: For Squirrels
Tabbed by: Josh J

Standard Tuning -E-A-D-G-B-E-


This is just the guitar part for the chorus and it is also the bass line through the verse and chorus.
e|-------------------------------------|
b|-------------------------------------| 
g|-9-9-x-12-12-------------------------| 
d|-9-9-x-12-12---12-12---9-9-9-9-9-9-9-| 
a|-7-7-x-10-10---12-12---9-9-9-9-9-9-9-| 
e|-----x---------10-10---7-7-7-7-7-7-7-| 

Guitar part played over the chords above.  (This part is very fast and probably isn't right.)
e|---------12-------------------------|
b|------------12----------------------|
g|-9^10-------------9^10----9\6-7/9---|
d|------12-------12------12-----------|
a|------------------------------------|
e|------------------------------------|
    

♥2001 - 2017 Solairis web designs.
Page last updated: Sun Apr 30 18:55:32 2017
DEBUG html css uptime. MPG: 0.062138, Thread: 17561