For Squirrels

Tabs - Example - Orangeworker

Index - Baypath Road | Example | Never Bet The Devil Your Head | Misc. - - Tablature Explanation
Song: Orangeworker
Album: Example
Music by: For Squirrels 
Tabbed by: Josh J, but could not have been done
           without the bass intro by Brian Sharpe

Standard Tuning -E-A-D-G-B-E-

Chords used in this song:
 D   G   Bm  A
-2- -3- -2- -0-
-3- -3- -3- -2-
-2- -0- -4- -2-
-0- -0- -4- -2-
-x- -x- -2- -0-
-x- -3- -x- -x-


INTRO
  Bass
g|---------------------------------|---------------------------------| 
d|---------------------------------|---------5-4-2---0---------------| 
a|-------------------------0-2-4---|-5-----5-----------------0-2-4---|
e|---------------------------------|---------------------------------|
|
| Guitar 1 (clean)
e|---------------------------------|---------------------------------| 
b|---------------------------------|---------------------------------| 
g|---------------------------------|---------------------------------| 
d|---------------------------------|---0---0---0---0---0---0---0---0-| 
a|---------------------------------|-12--12--12--12--12--12--12--12--| 
e|---------------------------------|---------------------------------|

  Bass
g|---------------------------------|---------------------------------| 
d|---------5-4-2-0-2---------------|---------5-4-2---0---------------| 
a|-5-----5-----------------0-2-4---|-5-----5-----------------0-2-4---|
e|---------------------------------|---------------------------------|
|
| Guitar 1
e|---------------------------------|---------------------------------| 
b|---------------------------------|---------------------------------| 
g|---------------------------------|---------------------------------| 
d|---0---0---0---0---0---0---0---0-|---0---0---0---0---0---0---0---0-| 
a|-12--12--12--12--12--12--12--12--|-12--12--12--12--12--12--12--12--| 
e|---------------------------------|---------------------------------|

  Bass
g|---------------------------------| 
d|---------5-4-2-0-----------------| 
a|-5-----5-----------------0-2-4---|
e|-----------------0---------------|
|
| Guitar 1
e|---------------------------------| 
b|---------------------------------| 
g|---------------------------------|
d|---0---0---0---0---0---0---0---0-|
a|-12--12--12--12--12--12--12--12--|
e|---------------------------------|


VERSE
  Guitar 1
e|---------------------------------|---------------------------------| 
b|---------------------------------|---------------------------------| 
g|---------------------------------|---------------------------------| 
d|---0---0---0---0---0---0---0---0-|---0---0---0---0---0---0---0---0-| 
a|-12--0---10--0---9---0---7---0---|-9---0---10--0---7---0---7---0---| 
e|---------------------------------|---------------------------------|

e|---------------------------------|---------------------------------| 
b|---------------------------------|---------------------------------| 
g|---------------------------------|---------------------------------| 
d|---0---0---0---0---0---0---0---0-|---0---0---0---0---0---0---0---0-| 
a|-12--0---10--0---9---0---7---0---|-9---0---10--0---7---0---7---0---| 
e|---------------------------------|---------------------------------|

e|---------------------------------|---------------------------------| 
b|---------------------------------|---------------------------------| 
g|---------------------------------|---------------------------------| 
d|---0---0---0---0---0---0---0---0-|---0---0---0---0---0---0---0---0-| 
a|-12--0---10--0---9---0---7---0---|-9---0---10--0---7---0---7---0---| 
e|---------------------------------|---------------------------------|

e|---------------------------------|---------------------------------| 
b|---------------------------------|---------------------------------| 
g|---------------------------------|---------------------------------| 
d|---0---0---0---0---0---0---0---0-|---0---0---0---0-----------------| 
a|-12--0---10--0---9---0---7---0---|-9---0---10--0---7-5-0-7-5-0-7-5-| 
e|---------------------------------|---------------------------------|


CHORUS
  Guitar 1
   D               G                 Bm              A
e|-2---2-2---2---2-3---3-3---3---3-|-2---2-2---2---2-0---0-0---0---0-| 
b|-3---3-3---3---3-3---3-3---3---3-|-3---3-3---3---3-2---2-2---2---2-| 
g|-2---2-2---2---2-0---0-0---0---0-|-4---4-4---4---4-2---2-2---2---2-| 
d|-0---0-0---0---0-0---0-0---0---0-|-4---4-4---4---4-2---2-2---2---2-| 
a|-----------------x---x-x---x---x-|-2---2-2---2---2-0---0-0---0---0-| 
e|-----------------3---3-3---3---3-|---------------------------------|
    

♥2001 - 2017 Solairis web designs.
Page last updated: Sun Apr 30 18:55:32 2017
DEBUG html css uptime. MPG: 0.051724, Thread: 22075