For Squirrels

Tabs - Example - Stark Pretty

Index - Baypath Road | Example | Never Bet The Devil Your Head | Misc. - - Tablature Explanation
Song: Stark Pretty
Album: Example
Music by: For Squirrels
Tabbed by: Josh J

Standard Tuning -E-A-D-G-B-E-


intro and chorus
e|---------------------------------|
b|---------------------------------|
g|---------------------------------|
d|---------------------------------|
a|-----7-------9-------7-----------|
e|-9-9---7-7-7---5-5-5---7-7-0-0-0-|

this is the verse and it's variations
e|----------------------------4^5^4^5^4-|
b|---4-5------------5-------------------|
g|-6--------------------6---4-----------|
d|--------------------------------------|
a|--------------------------------------|
e|--------------------------------------|

e|----------------------------4^5^4^5---|
b|---4-5------------5-------------------|
g|-6--------------------6---4---------4-|
d|--------------------------------------|
a|--------------------------------------|
e|--------------------------------------|

e|----------------------------16^17^16^17^16-|
b|---4-5------------5------------------------|
g|-6--------------------6---4----------------|
d|-------------------------------------------|
a|-------------------------------------------|
e|-------------------------------------------|
    

♥2001 - 2017 Solairis web designs.
Page last updated: Sun Apr 30 18:55:32 2017
DEBUG html css uptime. MPG: 0.078998, Thread: 15569