For Squirrels

Tabs - Example - Under Smithville

Index - Baypath Road | Example | Never Bet The Devil Your Head | Misc. - - Tablature Explanation
Song: Under Smithville
Album: Example
Music by: For Squirrels
Tabbed by: Josh J

Standard Tuning -E-A-D-G-B-E-

Chords used in this song:
 D   Bm  G   A   Em
-2- -2- -3- -0- -0-
-3- -3- -3- -2- -0-
-2- -4- -0- -2- -0-
-0- -4- -x- -2- -2-
-x- -2- -2- -0- -2-
-x- -x- -3- -x- -0-


Intro
Guitar 1 (clean)
e|------0-2-3-5-5-3-2-0-|
b|----------------------|
g|----------------------|
d|----------------------|
a|----------------------|
e|----------------------|

1st verse 
In my room ___                             on a pad___
e|-2---2------2---2---2---2---2-0-0-|-2---2------2---2---2---2---2-0-0-|
b|-3---3------3---3---3---3---3-0-0-|-3---3------3---3---3---3---3-0-0-|
g|-2---2------2---2---2---2---2-0-0-|-4---4------4---4---4---4---4-0-0-|
d|-0---0----------------------------|-4---4----------------------------|
a|----------------------------------|-2---2----------------------------|
e|----------------------------------|----------------------------------|

Was written a letter__               return address to you_
e|-3---3------3---3---3---3---3-0-0-|-0---0------0---3---3---2---2-0-0-|
b|-3---3------3---3---3---3---3-0-0-|-2---2------2---2---2---2---2-0-0-|
g|-0---0------0---0---0---0---0-0-0-|-2---2------2---2---2---2---2-0-0-|
d|-x---x----------------------------|-2---2------2---2---2---2---2-----|
a|-2---2----------------------------|-0---0----------------------------|
e|-3---3----------------------------|----------------------------------|

Oh I had walked__                Over a mile____
e|-2---2------2---2---2---2---2-0-0-|-2---2------2---2---2---2---2-0-0-|
b|-3---3------3---3---3---3---3-0-0-|-3---3------3---3---3---3---3-0-0-|
g|-2---2------2---2---2---2---2-0-0-|-4---4------4---4---4---4---4-0-0-|
d|-0---0----------------------------|-4---4----------------------------|
a|----------------------------------|-2---2----------------------------|
e|----------------------------------|----------------------------------|

Under storm warns__                across the fields of snow
e|-3---3------3---3---3---3---3-0-0-|-0---0------0---3---3---2---2-0-0-|
b|-3---3------3---3---3---3---3-0-0-|-2---2------2---2---2---2---2-0-0-|
g|-0---0------0---0---0---0---0-0-0-|-2---2------2---2---2---2---2-0-0-|
d|-x---x----------------------------|-2---2------2---2---2---2---2-----|
a|-2---2----------------------------|-0---0----------------------------|
e|-3---3----------------------------|----------------------------------|

And I've been feeling so grand___               oh no
e|-2------2---2---0-2------2---2---2-|-3------------------3---3-----------|
b|-3------3---3---0-3------3---3---3-|-3------------------3---3-----------|
g|-4------4---4---0-2------2---2---2-|-0------------------0---0-----------|
d|-4------4---4------0------0--------|-0------0-2h4p2-0---0---0---2h4p2-0-|
a|-2---------------------------------|-x------------------x---x-----------|
e|-----------------------------------|-3------------------3---3-----------|

Tell me now who do you think I am
e|-2------2---2---0-2------2---2---2-|-3------3---3---3---3------5-3-2-0-|
b|-3------3---3---0-3------3---3---3-|-3------3---3---3---3--------------|
g|-4------4---4---0-2------2---2---2-|-0------0---0---0---0--------------|
d|-4------4---4-----0------0---------|-0------0---0---0---0--------------|
a|-2---------------------------------|-x------x---x---x---x--------------|
e|-----------------------------------|-3------3---3---3---3--------------|

2nd verse 
Arrived there ___                tired and cold___
e|-2---2------2---2---2---2---2-0-0-|-2---2------2---2---2---2---2-0-0-|
b|-3---3------3---3---3---3---3-0-0-|-3---3------3---3---3---3---3-0-0-|
g|-2---2------2---2---2---2---2-0-0-|-4---4------4---4---4---4---4-0-0-|
d|-0---0----------------------------|-4---4----------------------------|
a|----------------------------------|-2---2----------------------------|
e|----------------------------------|----------------------------------|

Delivered your letter__               return address to you_
e|-3---3------3---3---3---3---3-0-0-|-0---0------0---3---3---2---2-0-0-|
b|-3---3------3---3---3---3---3-0-0-|-2---2------2---2---2---2---2-0-0-|
g|-0---0------0---0---0---0---0-0-0-|-2---2------2---2---2---2---2-0-0-|
d|-x---x----------------------------|-2---2------2---2---2---2---2-----|
a|-2---2----------------------------|-0---0----------------------------|
e|-3---3----------------------------|----------------------------------|

This is the house__               This is the road____
e|-2---2------2---2---2---2---2-0-0-|-2---2------2---2---2---2---2-0-0-|
b|-3---3------3---3---3---3---3-0-0-|-3---3------3---3---3---3---3-0-0-|
g|-2---2------2---2---2---2---2-0-0-|-4---4------4---4---4---4---4-0-0-|
d|-0---0----------------------------|-4---4----------------------------|
a|----------------------------------|-2---2----------------------------|
e|----------------------------------|----------------------------------|

And here's my letter__               where the heck are you
e|-3---3------3---3---3---3---3-0-0-|-0---0------0---3---3---2---2-0-0-|
b|-3---3------3---3---3---3---3-0-0-|-2---2------2---2---2---2---2-0-0-|
g|-0---0------0---0---0---0---0-0-0-|-2---2------2---2---2---2---2-0-0-|
d|-x---x----------------------------|-2---2------2---2---2---2---2-----|
a|-2---2----------------------------|-0---0----------------------------|
e|-3---3----------------------------|----------------------------------|

And I've been feeling so_____                       oh no
e|-2------2---2---0-2------2---2---2-|-3------------------3---3-----------|
b|-3------3---3---0-3------3---3---3-|-3------------------3---3-----------|
g|-4------4---4---0-2------2---2---2-|-0------------------0---0-----------|
d|-4------4---4---0--------0---------|-0------0-2h4p2-0---0---0---2h4p2-0-|
a|-2---------------------------------|-x------------------x---x-----------|
e|-----------------------------------|-3------------------3---3-----------|

Tell me now who do you think I am
[e|-2------2---2---0-2------2---2---2-|-3------3---3---3---3-------------|
[b|-3------3---3---0-3------3---3---3-|-3------3---3---3---3-2-2-2-2-2-2-|
[g|-4------4---4---0-2------2---2---2-|-0------0---0---0---0-2-2-2-2-2-2-|
[d|-4------4---4-----0------0---------|-0------0---0---0---0-2-2-2-2-2-2-|
[a|-2---------------------------------|-x------x---x---x---x-0-0-0-0-0-0-|
[e|-----------------------------------|-3------3---3---3---3-------------|
[ Guitar 2 (w/dist.)
[e|-----------------------------------|----------------------------------|
[b|-----------------------------------|----------------------------------|
[g|-----------------------------------|----------------------2-2-2-2-2-2-|
[d|-----------------------------------|----------------------2-2-2-2-2-2-|
[a|-----------------------------------|----------------------0-0-0-0-0-0-|
[e|-----------------------------------|----------------------------------|

chorus 1
Lay down under the playround hold up I can't hold up for long
guitar 1 (clean)
rhythm figure 1.............................................................}
[e|-2------2-2------0-0------3-3------2-|-2------3-3-----0-0------0-0-0-0-0-|
[b|-3------3-3------2-2------3-3------3-|-3------3-3-----2-2------0-0-0-0-0-|
[g|-2------4-4------2-2------0-0------4-|-4------0-0-----2-2------0-0-0-0-0-|
[d|-0------4-4------2-2------0-0------4-|-4------0-0-----2-2------2-2-2-2-2-|
[a|--------2-2------0-0------x-x------2-|-2------x-x-----0-0------2-2-2-2-2-|
[e|--------------------------3-3--------|--------3-3--------------0-0-0-0-0-|
[ guitar 2 (w/dist.)
[rhythm figure 2............................................................}
[e|-------------------------------------|-----------------------------------|
[b|-------------------------------------|-----------------------------------|
[g|-7------4-4------2-2---------------4-|-4---------------2-2---------------|
[d|-7------4-4------2-2------5-5------4-|-4------5-5------2-2-----2-2-2-2-2-|
[a|-5------2-2------0-0------5-5------2-|-2------5-5------0-0-----2-2-2-2-2-|
[e|--------------------------3-3--------|--------3-3--------------0-0-0-0-0-|

Lay down under the playround please don't bury me
w/rhythm figures 1 and 2....................................................}

Lay down under the playround hold up I can't hold up for long
w/rhythm figures 1 and 2....................................................}

Lay down under the playround please don't bury 
Guitar 1 (clean)
|e|-2------2-2------0-0------3-3------2-|-2------3-3---------0-2-3-5-5-3-2-0-|
|b|-3------3-3------2-2------3-3------3-|-3------3-3-------------------------|
|g|-2------4-4------2-2------0-0------4-|-4------0-0-------------------------|
|d|-0------4-4------2-2------0-0------4-|-4------0-0-------------------------|
|a|--------2-2------0-0------x-x------2-|-2------x-x-------------------------|
|e|--------------------------3-3--------|--------3-3-------------------------|
| Guitar 2 (w/dist.)
|e|-------------------------------------|------------------------------------|
|b|-------------------------------------|------------------------------------|
|g|-7------4-4------2-2---------------4-|-4----------------------------------|
|d|-7------4-4------2-2------5-5------4-|-4------5-5-------------------------|
|a|-5------2-2------0-0------5-5------2-|-2------5-5-------------------------|
|e|--------------------------3-3--------|--------3-3-------------------------|

3rd verse 
In my room ___                           on the fire___
e|-2---2------2---2---2---2-3-2-0---|-2---2------2---2---2---2-2-0------|
b|-3---3------3---3---3---3-------3-|-3---3------3---3---3---3------3-2-|
g|-2---2------2---2---2---2---------|-4---4------4---4---4---4----------|
d|-0---0----------------------------|-4---4-----------------------------|
a|----------------------------------|-2---2-----------------------------|
e|----------------------------------|-----------------------------------|

Was burnig a letter__                return address to you_
e|-3---3------3---3---3---3--------0-|-0---0------0---3---3---2-5-3-2-0-|
b|-3---3------3---3---3---3-0-2-3----|-2---2------2---2---2---2---------|
g|-0---0------0---0---0---0----------|-2---2------2---2---2---2---------|
d|-x---x-----------------------------|-2---2------2---2---2---2---------|
a|-2---2-----------------------------|-0---0----------------------------|
e|-3---3-----------------------------|----------------------------------|

Oh I had walked ___                  over a mile___
e|-2---2------2---2---2---2-3-2-0---|-2---2------2---2---2---2-2-0-----|
b|-3---3------3---3---3---3-------3-|-3---3------3---3---3---3-----3-2-|
g|-2---2------2---2---2---2---------|-4---4------4---4---4---4---------|
d|-0---0----------------------------|-4---4----------------------------|
a|----------------------------------|-2---2----------------------------|
e|----------------------------------|----------------------------------|

And under storm warns__          where the heck were you_
e|-3---3------3---3---3---3-------0-|-0---0------0---3---3---2-5-3-2-0-|
b|-3---3------3---3---3---3-0-2-3---|-2---2------2---2---2---2---------|
g|-0---0------0---0---0---0---------|-2---2------2---2---2---2---------|
d|-x---x----------------------------|-2---2------2---2---2---2---------|
a|-2---2----------------------------|-0---0----------------------------|
e|-3---3----------------------------|----------------------------------|

And I've been feeling so grand___                                  oh no
e|-2------2---2---0-2------2---2---2-|-3------------------3---3-----------|
b|-3------3---3---0-3------3---3---3-|-3------------------3---3-----------|
g|-4------4---4---0-2------2---2---2-|-0------------------0---0-----------|
d|-4------4---4-----0------0---------|-0------0-2h4p2-0---0---0---2h4p2-0-|
a|-2---------------------------------|-x------------------x---x-----------|
e|-----------------------------------|-3------------------3---3-----------|
Tell me now who do you think I am                        it's just that
[e|-2------2---2---0-2------2---2---2-|-3------3---3---3---3---------3------|
[b|-3------3---3---0-3------3---3---3-|-3------3---3---3---3---------3------|
[g|-4------4---4---0-2------2---2---2-|-0------0---0---0---0---------0------|
[d|-4------4---4-----0------0---------|-0------0---0---0---0---------0------|
[a|-2---------------------------------|-x------x---x---x---x---------x------|
[e|-----------------------------------|-3------3---3---3---3---------3------|
[ guitar 2 (w/dist.)
[e|-----------------------------------|-----------------------3/(5)-5-5-3---|
[b|-----------------------------------|-----------------------3/(5)-5-5-3---|
[g|-----------------------------------|-------------------------------------|
[d|-----------------------------------|-------------------------------------|
[a|-----------------------------------|-------------------------------------|
[e|-----------------------------------|-------------------------------------|

It's a little bit harder just to hold your hand, around, around, around we go
e|-2------2---2---0-2------2---2---2-|-3------------------3---3-----------|
b|-3------3---3---0-3------3---3---3-|-3------------------3---3-----------|
g|-4------4---4---0-2------2---2---2-|-0------------------0---0-----------|
d|-4------4---4-----0------0---------|-0------0-2h4p2-0---0---0---2h4p2-0-|
a|-2---------------------------------|-x------------------x---x-----------|
e|-----------------------------------|-3------------------3---3-----------|

Tell me now who do you think I am
[e|-2------2---2---0-2------2---2---2-|-3------3---3---3---3-------------|
[b|-3------3---3---0-3------3---3---3-|-3------3---3---3---3-2-2-2-2-2-2-|
[g|-4------4---4---0-2------2---2---2-|-0------0---0---0---0-2-2-2-2-2-2-|
[d|-4------4---4-----0------0---------|-0------0---0---0---0-2-2-2-2-2-2-|
[a|-2---------------------------------|-x------x---x---x---x-0-0-0-0-0-0-|
[e|-----------------------------------|-3------3---3---3---3-------------|
[ Guitar 2 (w/dist.)
[e|-----------------------------------|----------------------------------|
[b|-----------------------------------|----------------------------------|
[g|-----------------------------------|----------------------2-2-2-2-2-2-|
[d|-----------------------------------|----------------------2-2-2-2-2-2-|
[a|-----------------------------------|----------------------0-0-0-0-0-0-|
[e|-----------------------------------|----------------------------------|

chorus 2
Lay down under the playround hold up I can't hold up for long
w/rhythm figure 1 and 2.................................................}

Lay down under the playround please don't bury me
w/rhythm figure 1 and 2.................................................}

Lay down under the playround hold up I can't hold up for long
w/rhythm figure 1 and 2.................................................}

Lay down under the playround please don't bury me
[e|-2------2-2------0-0------3-3-------2-|-2------3-3-------------------------|
[b|-3------3-3------2-2------3-3-------3-|-3------3-3-------------------------|
[g|-2------4-4------2-2------0-0-------4-|-4------0-0-------------------------|
[d|-0------4-4------2-2------0-0-------4-|-4------0-0---------------0-2-0-----|
[a|--------2-2------0-0------x-x-------2-|-2------x-x-----------0-2-------2-0-|
[e|--------------------------3-3---------|--------3-3---------3---------------|
[
[e|--------------------------------------|------------------------------------|
[b|--------------------------------------|------------------------------------|
[g|-7------4-4------2-2----------------4-|-4----------------------------------|
[d|-7------4-4------2-2------5-5-------4-|-4------5-5-------------------------|
[a|-5------2-2------0-0------5-5-------2-|-2------5-5-------------------------|
[e|--------------------------3-3---------|--------3-3-------------------------|

And I've been feeling so grand___                                         oh no
e|-2------2---2---0-2------2---2---2-|-3------------------3---3-----------|
b|-3------3---3---0-3------3---3---3-|-3------------------3---3-----------|
g|-4------4---4---0-2------2---2---2-|-0------------------0---0-----------|
d|-4------4---4-----0------0---------|-0------0-2h4p2-0---0---0---2h4p2-0-|
a|-2---------------------------------|-x------------------x---x-----------|
e|-----------------------------------|-3------------------3---3-----------|

Tell me now who do you think I am                           it's just that
[e|-2------2---2---0-2------2---2---2-|-3------3---3---3---3---------3------|
[b|-3------3---3---0-3------3---3---3-|-3------3---3---3---3---------3------|
[g|-4------4---4---0-2------2---2---2-|-0------0---0---0---0---------0------|
[d|-4------4---4-----0------0---------|-0------0---0---0---0---------0------|
[a|-2---------------------------------|-x------x---x---x---x---------x------|
[e|-----------------------------------|-3------3---3---3---3---------3------|
[ guitar 2 (w/dist.)
[e|-----------------------------------|-------------------3/(5)-5/(7)-7\(5)-|
[b|-----------------------------------|-------------------3/(5)-5/(7)-7\(5)-|
[g|-----------------------------------|-------------------------------------|
[d|-----------------------------------|-------------------------------------|
[a|-----------------------------------|-------------------------------------|
[e|-----------------------------------|-------------------------------------|

It's a little bit harder just to hold your hand, around, around, around we go
e|-2------2---2---0-2------2---2---2-|-3------------------3---3-----------|
b|-3------3---3---0-3------3---3---3-|-3------------------3---3-----------|
g|-4------4---4---0-2------2---2---2-|-0------------------0---0-----------|
d|-4------4---4-----0------0---------|-0------0-2h4p2-0---0---0---2h4p2-0-|
a|-2---------------------------------|-x------------------x---x-----------|
e|-----------------------------------|-3------------------3---3-----------|

Tell me now who do you think I am
e|-2------2---2---0-2------2---2---2-|-3---3---3-2---2-0---0-2^(3)^(2)-0--|
b|-3------3---3---0-3------3---3---3-|-3----------------------------------|
g|-4------4---4---0-2------2---2---2-|-0----------------------------------|
d|-4------4---4-----0------0---------|-0----------------------------------|
a|-2---------------------------------|-x----------------------------------|
e|-----------------------------------|-3----------------------------------|

In my room I'm so shocking
e|-----0-----0-----0-----0-|-----3-----3-----3-----3-|
b|-----0-----0-----0-----0-|-----3-----3-----3-----3-|
g|-----0-----0-----0-----0-|-----0-----0-----0-----0-|
d|-2-2-2-2-2-2-2-2-2-2-2-2-|-0-0-0-0-0-0-0-0-0-0-0-0-|
a|-2-2-2-2-2-2-2-2-2-2-2-2-|-x-x---x-x---x-x---x-x---|
e|-0-0---0-0---0-0---0-0---|-3-3---3-3---3-3---3-3---|

In my room I'm so very very shocking shocking shocking
[e|-----0-----0-----0-----0-|-----3-----3-----0-0-0-0-|
[b|-----0-----0-----0-----0-|-----3-----3-----2-2-2-2-|
[g|-----0-----0-----0-----0-|-----0-----0-----2-2-2-2-|
[d|-2-2-2-2-2-2-2-2-2-2-2-2-|-0-0-0-0-0-0-0-0-2-2-2-2-|
[a|-2-2-2-2-2-2-2-2-2-2-2-2-|-x-x---x-x---x-x-0-0-0-0-|
[e|-0-0---0-0---0-0---0-0---|-3-3---3-3---3-3---------|
[ Guitar 2 (w/dist.)
[e|-------------------------|--------------------------|
[b|-------------------------|--------------------------|
[g|-------------------------|------------------2-2-2-2-|
[d|-------------------------|------------------2-2-2-2-|
[a|-------------------------|------------------0-0-0-0-|
[e|-------------------------|--------------------------|

chorus 3
Lay down under the playround hold up I can't hold up for long
w/rhythm figures 1 and 2......................................}

Lay down under the playround please don't bury me
w/rhythm figures 1 and 2.......................................}

Lay down under the playround hold up I can't hold up for long
w/rhythm figures 1 and 2.......................................}

Lay down under the playround please don't bury me
w/rhythm figures 1 and 2......................................}

Please don't bury me bury me bury me all these lies_______
w/rhythm figures 1 and 2.......................................}

outro
Guitar 1 (clean)
[e|-2------2-2------0-0------3-3------2-|-2------3-3-----0-0------0-0-0-0-0-|-2---
[b|-3------3-3------2-2------3-3------3-|-3------3-3-----2-2------0-0-0-0-0-|-3---
[g|-2------4-4------2-2------0-0------4-|-4------0-0-----2-2------0-0-0-0-0-|-2---
[d|-0------4-4------2-2------0-0------4-|-4------0-0-----2-2------2-2-2-2-2-|-0---
[a|--------2-2------0-0------x-x------2-|-2------x-x-----0-0------2-2-2-2-2-|-----
[e|--------------------------3-3--------|--------3-3--------------0-0-0-0-0-|-----
[ Guitar 2 (w/dist.) 
[e|-------------------------------------|-----------------------------------|-----
[b|-------------------------------------|-----------------------------------|-----
[g|-7------4-4------2-2---------------4-|-4---------------2-2---------------|-7---
[d|-7------4-4------2-2------5-5------4-|-4------5-5------2-2-----2-2-2-2-2-|-7---
[a|-5------2-2------0-0------5-5------2-|-2------5-5------0-0-----2-2-2-2-2-|-5---
[e|--------------------------3-3--------|--------3-3--------------0-0-0-0-0-|------
    

♥2001 - 2017 Solairis web designs.
Page last updated: Sun Apr 30 18:55:32 2017
DEBUG html css uptime. MPG: 0.061997, Thread: 13863