For Squirrels

Tabs - Never Bet the Devil Your Head - Arial

Index - Baypath Road | Example | Never Bet The Devil Your Head | Misc. - - Tablature Explanation
Song: Arial
Album: Never Bet the Devil Your Head
Music by: Subrosa
Tabbed by: db

I don't have all of this song just yet.  I'm working on trying to 
figure out the parts I don't have yet.  Feel free to help out with the 
missing parts.

Standard Tuning (with a lot of effects)

E-|--11-------12---11--------------|
B-|-----0--------------0---12---0--|
G-|--------13------------------13--|  twice
D-|--------------------------------|
A-|--------------------------------|
E-|--------------------------------|

then
E-|--11-------12--11------14------|
B-|------0-------------0-------0--|
G-|--------13-----------------13--|
D-|-------------------------------|
A-|-------------------------------|
E-|-------------------------------|  then the first part



the verse part:

E-|-------------------------------------------------------|
B-|-------------------------------------------------------|
G-|-------------------------------------------------------|
D-|-------6----6-----6__7---------4------4------4---------|
A-|-----7---7-----7------------7-----7------7-------7-----|
E-|---0---------------------7-----------------------------|

E-|---------------------------------------------|
B-|---------------------------------------------|
G-|---------------------------------------------|
D-|--------9----9----9---------7---7-----7------|
A-|-----7----7----7----7----7----7----7-----7---|
E-|---8-------------------5---------------------|

okay, i need help with the other parts.  this will at least get you 
started.  feel free to add stuff on.
    

♥2001 - 2017 Solairis web designs.
Page last updated: Sun Apr 30 18:55:33 2017
DEBUG html css uptime. MPG: 0.075865, Thread: 21392